Tutoriel GUITARE FACILE


Tutoriel GUITARE FACILE

Tutoriel GUITARE FACILE
Vous souhaitez réagir à ce message ? Créez un compte en quelques clics ou connectez-vous pour continuer.

Tutoriel GUITARE FACILEConnexion

FLAMENCO-RUMBA.COM

Le Deal du moment :
Cartes Pokémon : où commander le coffret ...
Voir le deal
64.99 €

descriptionIc?neSOus le soleil de Bodega

more_horiz
Bonjour à toutes et à tous,


Je cherche depuis un petit moment l'introduction de cette fameuse chanson des Négresses Vertes...mais à l'oreille, la ressemblance me parait un tantinet médiocre.

Dans l'attente de vous lire.

Merci d'avance

descriptionIc?neRe: SOus le soleil de Bodega

more_horiz
ola amigo une petite video explicative qui date un peu mais elle me semble jhttps://www.flamenco-rumba.com/t5106-tablatures-en-video-sous-le-soleil-de-bodega?highlight=sous+le+soleil+de+bodegauste


µsurprise garofalo  §!§

descriptionIc?neRe: SOus le soleil de Bodega

more_horiz
ça donne un truc comme çà!

----------------|-3-|---------------- -|-3-|
-3-4-3---------|-3-|---- ---3----- ----|-3-|
-------5-4---4-|-4-|---4-5---5-4---4-|-4-|
-----------5----|-5-|-5---- -------5---|-5-|
----------------|-5-|------- ----------|-5-|
----------------|-3-|------- ----------|-3-|

-----------------|-3-|-------------------|-3-|
-3-4-3---------|-3-|-------3-----------|-3-|
-------5-4---4-|-4-|---4-5---5-4-----|-4-|
------------5---|-5-|-5-----------6-5-|-5-|
-----------------|-5-|-------------------|-5-|
-----------------|-3-|-------------------|-3-|

-------------------|--------------------|
-3-4-6-4-3-4---|-------3------------|
----------------5-|-5-4-5---5-4---5-|
-------------------|----------------5---|
-------------------|---------------------|
-------------------|---------------------|

--------------------|------------------------------|
--------------------|------------------------------|
-----4-----4-------|-----4-----4-----------------|
-5/6---5/6---5-6-|-5/6---5/6---6-5-3---------|
--------------------|-------------------6-5-3-2-|
--------------------|------------------------------|

-----------------|---------------|--------------------|
-----------------|-4-3---4-3---|-6-4-3-6-4-3-3--|
-----4-----4-5-|-----5-----5--|---------------------|
-5/6---5/6-----|---------------|---------------------|
-----------------|---------------|---------------------|
-----------------|---------------|---------------------|

-----------------|------------------|
-----------------|---------------3-|
-4-5-4---4-----|---4-5---4-5---|
-------5---5-5-|-5-----5---------|
-----------------|------------------|
-----------------|------------------|

-4-3-------------|-------------------|
------6-4-3---3-|-3----------------|
--------------5---|---5-4-5-4------|
-------------------|-------------5-5-|
-------------------|------------------|
-------------------|------------------|


Web: http://elrasgueador.free.fr/


descriptionIc?neRe: SOus le soleil de Bodega

more_horiz
tu sais ce que ça veut dire:
- J'entends hurler le mellino!


Web: http://elrasgueador.free.fr/


descriptionIc?neRe: SOus le soleil de Bodega

more_horiz
mellino c est le nom du guitariste des negresses vertes!


µsurprise garofalo  §!§

descriptionIc?neRe: SOus le soleil de Bodega

more_horiz
SOus le soleil de Bodega 615911

Sans picador ni corrida!


Web: http://elrasgueador.free.fr/


descriptionIc?neRe: SOus le soleil de Bodega

more_horiz
Merci à vous SOus le soleil de Bodega 812293611

descriptionIc?neRe: SOus le soleil de Bodega

more_horiz
privacy_tip Permission de ce forum:
Vous ne pouvez pas répondre aux sujets dans ce forum