Tutoriel GUITARE FACILE


Tutoriel GUITARE FACILE

Tutoriel GUITARE FACILE
Vous souhaitez réagir à ce message ? Créez un compte en quelques clics ou connectez-vous pour continuer.

Tutoriel GUITARE FACILEConnexion

FLAMENCO-RUMBA.COM

Le Deal du moment : -40%
Machine à café avec broyeur KRUPS ...
Voir le deal
357.99 €

Gamme GIPSY LA Mineur harmonique

+3
moreno
xabi
paco d' Albaron
7 participants

descriptionBueno!Gamme GIPSY LA Mineur harmonique

more_horiz
Rappel du premier message :

Bonjour à Tous !
Voici un joli cadeau de noel qui va vous triturer l'esprit un bon moment si vous en avez pas encor pris connaissance (a travailler des heures en boucle en aller retour cela apporte de la dexterité et de la rapidité dans le jeux)
Bon travaille à tous....
et joyeuse fêtes
Olé...

la gamme de LA mineur Harmonique(A) Gipsy Spanish
e-----------------------------------------------------------------------------0----1----4------5--------
.................................................................................................Mi...Fa..Sol#...La
b--------------------------------------------------------------0---1----3-------------------------------
..............................................................................Si...Do..Re
g-------------------------------------------------1-----2-----------------------------------------------
..............................................................Sol#...La
d----------------------------------0---2---3------------------------------------------------------------
...........................................Re..Mi..Fa
a-------------------0---2---3---------------------------------------------------------------------------
........................La...Si..Do
e---0---1----4------------------------------------------------------------------------------------------
.....Mi..Fa...Sol#


la gamme de LA Mineur (A) Harmonique Gipsy Spanish

e-----------------------------------------------------------------------------5----7----8----10--------
.................................................................................................La...Si.....Do...Re
b--------------------------------------------------------------5---6----9-------------------------------
..............................................................................Mi...Fa.. Sol#
g-------------------------------------------------4---5---7-----------------------------------------------
..............................................................Si..Do..Re
d----------------------------------6------7------------------------------------------------------
...........................................Sol#..La
a-------------------5---7---8---------------------------------------------------------------------------
........................Re...Mi..Fa
e---5---7---8------------------------------------------------------------------------------------------
.....La..Si...Do


Dernière édition par ricky68 le Mar 27 Déc 2011 - 12:10, édité 2 fois

descriptionBueno!Re: Gamme GIPSY LA Mineur harmonique

more_horiz
http://www.jeanpierrepoulin.com/EG/FretboardGuitar.php

Ici toutes les gammes possibles !
ne me demandez pas comment elle s'appelle
mais un petit outils bien sympa afin de connaitre les notes de sa guitare !

Musicalement !

Ricky £Guitarist

descriptionBueno!Gamme LA Mineur harmonique

more_horiz
d]la gamme de LA mineur Harmonique(Am) Gipsy Spanish
e-----------------------------------------------------------------------------0----1----4------5--------
.................................................................................................Mi...Fa..Sol#...La
b--------------------------------------------------------------0---1----3-------------------------------
..............................................................................Si...Do..Re
g-------------------------------------------------1-----2-----------------------------------------------
..............................................................Sol#...La
d----------------------------------0---2---3------------------------------------------------------------
...........................................Re..Mi..Fa
a-------------------0---2---3---------------------------------------------------------------------------
........................La...Si..Do
e---0---1----4------------------------------------------------------------------------------------------
.....Mi..Fa...Sol#


la gamme de LA Mineur (Am) Harmonique Gipsy Spanish

e-----------------------------------------------------------------------------5----7----8----10--------
.................................................................................................La...Si.....Do...Re
b--------------------------------------------------------------5---6----9-------------------------------
..............................................................................Mi...Fa.. Sol#
g-------------------------------------------------4---5---7-----------------------------------------------
..............................................................Si..Do..Re
d----------------------------------6------7------------------------------------------------------
...........................................Sol#..La
a-------------------5---7---8---------------------------------------------------------------------------
........................Re...Mi..Fa
e---5---7---8------------------------------------------------------------------------------------------
.....La..Si...Do
[/quote]

descriptionBueno!Gamme LA Mineur harmonique

more_horiz
ricky68 a écrit:
Bonjour à Tous !
Bon travaille à tous....
et joyeuse fêtes
Olé...

la gamme de LA mineur Harmonique(Am) Gipsy Spanish
e-----------------------------------------------------------------------------0----1----4------5--------
.................................................................................................Mi...Fa..Sol#...La
b--------------------------------------------------------------0---1----3-------------------------------
..............................................................................Si...Do..Re
g-------------------------------------------------1-----2-----------------------------------------------
..............................................................Sol#...La
d----------------------------------0---2---3------------------------------------------------------------
...........................................Re..Mi..Fa
a-------------------0---2---3---------------------------------------------------------------------------
........................La...Si..Do
e---0---1----4------------------------------------------------------------------------------------------
.....Mi..Fa...Sol#


la gamme de LA Mineur (Am) Harmonique Gipsy Spanish

e-----------------------------------------------------------------------------5----7----8----10--------
.................................................................................................La...Si.....Do...Re
b--------------------------------------------------------------5---6----9-------------------------------
..............................................................................Mi...Fa.. Sol#
g-------------------------------------------------4---5---7-----------------------------------------------
..............................................................Si..Do..Re
d----------------------------------6------7------------------------------------------------------
...........................................Sol#..La
a-------------------5---7---8---------------------------------------------------------------------------
........................Re...Mi..Fa
e---5---7---8------------------------------------------------------------------------------------------
.....La..Si...Do

descriptionBueno!Re: Gamme GIPSY LA Mineur harmonique

more_horiz
[quote="ricky68"]Bonjour à Tous !
Voici un joli cadeau de noel

arffffff Tu parles d'un cadeau . . . grrrrr :?:

descriptionBueno!Re: Gamme GIPSY LA Mineur harmonique

more_horiz
slt ricky68 slt

Grand merci à toi Very Happy , et merci également à Mitch Very Happy pour les diverses explications...


Pykatchoo Guitariste

descriptionBueno!Re: Gamme GIPSY LA Mineur harmonique

more_horiz
c'est toujours une maniere de progresser meme ci parfois on est pas toujours au top le tout c'est d'essayer et de s'amuser !
merci à vous les copains

descriptionBueno!Re: Gamme GIPSY LA Mineur harmonique

more_horiz
Pour harmoniser la gamme G♯On construit tous les accords avec exclusivement les notes DO RÉ MI FA SOL♯ LA SI

L'ensemble des accords à 3 notes:
C+ Dm E F (ou Fm) G♯m5- Am Bm5-


L'ensemble des accords à 4 notes:
C7M5+ Dm7 E7 F7M (ou Fm7M) G♯° Am7M Bm75-
§!§

descriptionBueno!Re: Gamme GIPSY LA Mineur harmonique

more_horiz
ricky68 a écrit:
Pour harmoniser la gamme G♯On construit tous les accords avec exclusivement les notes DO RÉ MI FA SOL♯ LA SI

L'ensemble des accords à 3 notes:
C+ Dm E F (ou Fm) G♯m5- Am Bm5-


L'ensemble des accords à 4 notes:
C7M5+ Dm7 E7 F7M (ou Fm7M) G♯° Am7M Bm75-
§!§

:?: je ne comprends pas ton propos, de quoi parles tu ? de la gamme de sol, de do )°°°

descriptionBueno!Re: Gamme GIPSY LA Mineur harmonique

more_horiz
ricky68 a écrit:
Pour harmoniser la gamme G♯On construit tous les accords avec exclusivement les notes DO RÉ MI FA SOL♯ LA SI

L'ensemble des accords à 3 notes:
C+ Dm E F (ou Fm) G♯m5- Am Bm5-


L'ensemble des accords à 4 notes:
C7M5+ Dm7 E7 F7M (ou Fm7M) G♯° Am7M Bm75-
§!§



Non Pour faire harmoniser la gamme tu prends (Tonique , Tierce,et la quinte)..abrazo

descriptionBueno!Re: Gamme GIPSY LA Mineur harmonique

more_horiz
Qui peut expliquer tonique tierce et quinte !
je sais quel constitue l'accord mais comment savoir si c'est la tonique ou autre dans l'accord ?

descriptionBueno!Re: Gamme GIPSY LA Mineur harmonique

more_horiz
on peut harmoniser de plusieurs facons ! pour faire simple : la tonique ou fondamentale indique le nom de l accord, la tierce mineur ( 1T1/2 au dessus) pour un accord mineur, la tierce majeur ( 2T au dessus ) pour un accord majeur et la quinte ( 3T1/2 ) au dessus, ceci pour des accords 3 sons !!! pour harmoniser la gamme on peut empiler des tierces : do mi sol si = do 7M re fa la do = rem7 mi sol si re = mim7 ET AINSI DE SUITE !!!!!! abrazo a todos

descriptionBueno!Re: Gamme GIPSY LA Mineur harmonique

more_horiz
Voila a tout dis Mitch......abrazo

descriptionBueno!Re: Gamme GIPSY LA Mineur harmonique

more_horiz
ha oui c'est si evident que j'ai rien compris merci qd meme ...

descriptionBueno!Re: Gamme GIPSY LA Mineur harmonique

more_horiz
En tous les cas mitch je te remercie pour tes aides techniques precieuses sans doutes meme si je ne comprend pas forcement tout !
a chacun son rythme !
mdr moi c'est vraiment doucement doucement joker

descriptionBueno!Re: Gamme GIPSY LA Mineur harmonique

more_horiz
lol ricky68.casse un peut ta tête . mitch a bien expliqué

descriptionBueno!Re: Gamme GIPSY LA Mineur harmonique

more_horiz
C'est toujours interessant de comprendre la construction des accords qu'on utilise tous les jours ...Merci de nous faire profiter de tes connaissances...A +

descriptionBueno!Re: Gamme GIPSY LA Mineur harmonique

more_horiz
privacy_tip Permission de ce forum:
Vous ne pouvez pas répondre aux sujets dans ce forum