Tutoriel GUITARE FACILE


Tutoriel GUITARE FACILE

Tutoriel GUITARE FACILE
Vous souhaitez réagir à ce message ? Créez un compte en quelques clics ou connectez-vous pour continuer.

Tutoriel GUITARE FACILEConnexion

FLAMENCO-RUMBA.COM

Le Deal du moment :
Cartes Pokémon : sortie d’un nouveau ...
Voir le deal

descriptionid?equelle sont les notes gipsy kings

more_horiz


bonjour je vousdrais savoir si vous pourier me donner les notes de cette musique des gypsy kings soul voila si vous les conaiser esque vous pouver me le faire montré en video..

descriptionid?eRe: quelle sont les notes gipsy kings

more_horiz
tres belle musique quelle sont les notes gipsy kings 705515

descriptionid?eRe: quelle sont les notes gipsy kings

more_horiz
ouai mais je voudrais savoir les notes *feux

descriptionid?eRe: quelle sont les notes gipsy kings

more_horiz
::)) Il y a seulement 4 accords, joué en deux partie,

Mettre le capodastre à la 5 éme cases, faire le schéma d'accords suivant.



Première partie

---0-------------------------- MI
---0-------------------------- SI
---0-------------------------- SOL
---4-------------------------- RE
---2-------------------------- LA
---0-------------------------- MI



---0-------------------------- MI
---1-------------------------- SI
---4-------------------------- SOL
---2-------------------------- RE
---0-------------------------- LA
---0-------------------------- MI


_________________________________________________________



seconde partie

---0-------------------------- MI
---1-------------------------- SI
---0-------------------------- SOL
---2-------------------------- RE
---3-------------------------- LA
---3-------------------------- MI



---2-------------------------- MI
---0-------------------------- SI
---2-------------------------- SOL
---1-------------------------- RE
---2-------------------------- LA
---2-------------------------- MI

descriptionid?eRe: quelle sont les notes gipsy kings

more_horiz
merci je vais verifié demain matin merci HOLLA ùù

descriptionid?eRe: quelle sont les notes gipsy kings

more_horiz
privacy_tip Permission de ce forum:
Vous ne pouvez pas répondre aux sujets dans ce forum