Tutoriel GUITARE FACILE


Tutoriel GUITARE FACILE

Tutoriel GUITARE FACILE
Vous souhaitez réagir à ce message ? Créez un compte en quelques clics ou connectez-vous pour continuer.

Tutoriel GUITARE FACILEConnexion

FLAMENCO-RUMBA.COM

Le deal à ne pas rater :
Coffret Pokémon Ultra Premium Dracaufeu 2022 en français : où le ...
Voir le deal
Le Deal du moment :
Cartes Pokémon : sortie d’un nouveau ...
Voir le deal

descriptionIc?necherche tablature "historia de un amor manuel malou"

more_horiz
Intro et tablature je cherche partout mais je ne trouve pas de vidéo ou otre qui explique bien le solo si quelqu'un pourai me donne un pti coup de main sa ferai plaisir :) gracias

descriptionIc?neRe: cherche tablature "historia de un amor manuel malou"

more_horiz
J'ai ceci.



HISTORIA DE UN AMOR
(Carlos E. Almaran)

Mim------------------------------------------Si7
Ya no estas mas a mi lado, corazon
Si7-----------------------------------mim
En el alma solo tengo soledad
--------------------------Re7
Y si ya no puedo verte
---------------------------------------Do
Porque Dios me hizo quererte
----------------------------------Si7
Para hacerme sufrir mas.
-----------------Mim-----------------------Lam
Siempre fuiste la razon de mi existir
----------------------Mim
Adorarte para mi fue religion
Mim--------------------------------re7
Y en tus besos yo encontraba
---------------------------Do
El calor que me brindaba
Si7------------------Mim
El amor, y la pasion.

Mim-----------------------------Lam
Es la historia de un amor
--------------------------------re7
Como no hay otro igual
Re7---------------------------Mim
Que me hizo comprender
Mim------------------------------Mim
Todo el bien, todo el mal.
Mim--------------------------Lam
Que le dio luz a mi vida
Re7------------------------Sol
Apagandola despues
---------------Mim-------------Lam
Ay que vida tan obscura
Si7-------------------Mim
Sin tu amor no vivire.

descriptionIc?neRe: cherche tablature "historia de un amor manuel malou"

more_horiz
Elle est trop bien cette chanson ! µmusic

descriptionIc?neRe: cherche tablature "historia de un amor manuel malou"

more_horiz
cherche tablature "historia de un amor manuel malou" Histor10cherche tablature "historia de un amor manuel malou" Solo_h11
gitaniko65700 a écrit:
Intro et tablature je cherche partout mais je ne trouve pas de vidéo ou otre qui explique bien le solo si quelqu'un pourai me donne un pti coup de main sa ferai plaisir :) gracias


cherche tablature "historia de un amor manuel malou" Solo_h10
J'ai trouvé ca dans une archive si ca peut t'aider !
Bonne gratte....
il me semble que la douzième note sonne pas bien a l'oreille c'est plus a la 10 que a la 9 eme case je pense...



Dernière édition par ricky68 le Lun 24 Fév 2014 - 17:22, édité 1 fois

descriptionIc?neRe: cherche tablature "historia de un amor manuel malou"

more_horiz
Une autre avec intro.


1/-------7--5--8-8h7h5------------------------7-------------------|
2/----------------------7-8-10-----------8--8---8h10---7-8--------|
3/----------------------------------------------------9-----------|
4/---9-9----------------------------9-9---------------------------|
5/----------------------------------------------------------------|
6/----------------------------------------------------------------|

1/----------------------------------------------------------------------|
2/----------------------------------------------------------------------|
3/-------8-8-8/10/8-7-7h8-7------7-7h8-7------------------7--7h8-7------|
4/----------------------------7-9--------9---------7-9--8----------9----|
5/---9-9--------------------------------------10------------------------|
6/----------------------------------------------------------------------|


1/---8-7----------|
2/-------10-8-7---|
3/--------------9-|
4/----------------|
5/----------------|
6/----------------|


Am B7
Ya no estas mas a mi lado corazon,
E
Y en el alma solo tengo soledad,
D7
Y si ya no puedo verte,
C
Porque dios mi hiso quererte,
B7---C------B7------C
Para hacerme sufrir mas.

Am B7
Siempre fuistes la razon de mi existir,
E
Adorarte para mi fue religion,
D7
En tus besos encontraba,
C
El calor que me brindabas,
B7---C------B7------C
El amor y la pasion.

Am
Es la historia de un amor,
B7
Como no hay otro igual,
E
Que me hiso comprender,
Am
Todo el bien, todo el mal.
B7
Que le dio luz a mi vida,
E
Apagandola despues,
Am B7
Ay! Que vida tan obscura,
E
Sin tu amor no vivire. ECT....................

descriptionIc?neRe: cherche tablature "historia de un amor manuel malou"

more_horiz
La première intro on dirai plus: quand je voi tes yeu je suis amoureu. ..lol

descriptionIc?neRe: cherche tablature "historia de un amor manuel malou"

more_horiz
gitaniko65700 a écrit:
La première intro on dirai plus: quand je voi tes yeu je suis amoureu. ..lol

 ¤c001

descriptionIc?neRe: cherche tablature "historia de un amor manuel malou"

more_horiz
Ah merci beaucoup !
Je n'avais pas osé demander ... car pas rumba...

Muchas gracias


sunny

descriptionIc?neRe: cherche tablature "historia de un amor manuel malou"

more_horiz
pas rumba ok, mais très belle chanson


JEANNOTcherche tablature "historia de un amor manuel malou" 3821709773

descriptionIc?neRe: cherche tablature "historia de un amor manuel malou"

more_horiz
privacy_tip Permission de ce forum:
Vous ne pouvez pas répondre aux sujets dans ce forum