Tutoriel GUITARE FACILE


Tutoriel GUITARE FACILE

Tutoriel GUITARE FACILE
Vous souhaitez réagir à ce message ? Créez un compte en quelques clics ou connectez-vous pour continuer.

Tutoriel GUITARE FACILEConnexion

FLAMENCO-RUMBA.COM

Le Deal du moment :
Coffret Pokémon Ultra Premium Dracaufeu 2022 en ...
Voir le deal
Le deal à ne pas rater :
Cartes Pokémon : où commander le coffret Pokémon Go Collection ...
64.99 €
Voir le deal

descriptionIc?neRecherche tablature solo du métèque de "Manolo"

more_horiz
Hola amigo,

je viens de découvrir une reprise du "métèque" par Manolo. Le solo en guitare est vraiment sympa et je suis à la recherche d'une tablature pour pouvoir m'entrainer. Après pleins de recherches, toujours nada... alors je fais appel à vous si par cas vous connaissez un lien, ...

merci $££$

descriptionIc?neRe: Recherche tablature solo du métèque de "Manolo"

more_horiz
vinc_40 a écrit:
Hola amigo,

je viens de découvrir une reprise du "métèque" par Manolo. Le solo en guitare est vraiment sympa et je suis à la recherche d'une tablature pour pouvoir m'entrainer. Après pleins de recherches, toujours nada... alors je fais appel à vous si par cas vous connaissez un lien, ...

merci $££$

J'aime beaucoup le métèque, tu peux nous dire où tu as trouvé cette reprise, ça doit certainement être bon !
lol

descriptionIc?neRe: Recherche tablature solo du métèque de "Manolo"

more_horiz
Salut Louislouis,

j'ai acheté la semaine dernière la compilation de Manolo: Solo diré.

et la dernière musique est la reprise de Moustaki le Métèque. Il ne fait que la jouer... il ne chante pas !

Voilà !

$££$

descriptionIc?neRe: Recherche tablature solo du métèque de "Manolo"

more_horiz
pour les accor regarde sur les video tu poura aumoin voir ou il son place les note 2 personne on poste une video sur le metec


si sa peux aide voila £Guitarist

descriptionIc?neRe: Recherche tablature solo du métèque de "Manolo"

more_horiz
c'est dommage que l'on ne voit pas le guitariste jouer :


descriptionIc?neRe: Recherche tablature solo du métèque de "Manolo"

more_horiz
je suis hors sujet car là il la joue de la manière habituelle, mais ça peux aider ceux ou celles qui ne l'ont jamais joué :

descriptionIc?nevideo de bouba

more_horiz
$££$ bouba l'avait posté ,mais bon l'emotion est au rendez vous .!
Salut à tous, amis rumberos! Voici une chanson française de Georges Moustaki "le météque".
Les accords sont: La, Mi, La, Mi, Ré, Ré bémol mineur, Si mineur, La.
ET a la fin: La, Mi, La, Ré, La.

encore merci bouba OLéééé!!!

descriptionIc?neola bouba

more_horiz
jala michto bouba chez nous on t'aime bien on aime t duo aussi avec ton ami franky

descriptionIc?neRe: Recherche tablature solo du métèque de "Manolo"

more_horiz
.


Merci pr vos réponses !
J'ai toujours pas trouvé !! des que j'ai l'info, je diffuserais .

Mais en attendant j'ai fait ma ptite vidéo en rythme avec le chant
http://flamenco.1fr1.net/vos-demonstrations-f10/le-meteque-t3152.htm

descriptionIc?neRe: Recherche tablature solo du métèque de "Manolo"

more_horiz
Voilà la tablature du solo du métèque repris par Manolo... Je me suis fait aidé d'un ami qui la retrouvé a peu prés à l'oreille....

pour ceux que ça intéresse ! £Guitarist

-------------------------------------------------------------------------------------------------------------------------------------------------------------------------
---------------------------------------------------------------------------------------------------------------------55-------------------------------------------------
-5-5-4-5-7-9-10-10-9-9-7-7-5-5-4-5-6-7-----5-5-4-4------4-4------------------------------55-----------77---------44-----77-------55-----------
-----------------------------------------------------7-7------------55-------7-7----------77-----55---------------------------------------------------------------
----------------------------------------------------------------------------------------88------------------------------------------------------------------------------

slt

descriptionIc?neRe: Recherche tablature solo du métèque de "Manolo"

more_horiz
hola
pourrais-tu en faire une vidéo du solo stp?


Mieux vaut avoir Parkinson qu'Alzeimer, en effet vaut mieux reverser deux goutes de son Ricard qu'oublier de le boire!!!

descriptionIc?neRe: Recherche tablature solo du métèque de "Manolo"

more_horiz
alors la version ricao se fait capo 1 ou 2 en "mi fa#min si7 mi et un la7 par moment
et le solo commence au début du manche pour pouvoir retombé sur les accord,le si7 en barré 2 case

MI---------------------------------------------------------FA#min
-------------------------------0-2-00--2222--1-------------
-1111--2-1------1-----1-2-------------------------234-----
---------------4-----------------------------------------------
---------------------------------------------------------------
--------------------------------------------------------------


----------------------------------SI7---------------------------MI----
-----------------------------0-2-4----22-0000--------------------------------
--2222-4-2-1-2------2---------------------------2-1------1-------------------------
-----------------------------------------------------------44------------
-------------------------------------------------------------------------
-----------------------------------------------------------------------

MI_________________________lié_______________FA#min
--0000-2-0----0------0-2-4-5-44-2--2424------------44--------2--------------------------------
---------------4-------------------------------------5---55-------2------
-----------------------------------------------------------------------
---------------------------------------------------------------------------
--------------------------------------------------------------------------
--------------------------------------------------------------------------

_________SI7_________LA7___________MI
--------------------------------------------------------------------------------
--2222--5554-----0000-4442-------------2220------------------------------------------------------
-----------------------------------------2222------------------------------------------
------------------------------------------------------------------------------------
------------------------------------------------------------------------------------
------------------------------------------------------------------------------------

MI________FA#min_____SI7_____MI_____________FA#min_____SI7______MI
--0000-44-42---------------------22-20--------------0000-44-42-----------------------22-20--------------
------------------------------4444----------------------------------------------------4444------------------------
--------------------------------------------------------------------------------------
----------------------------------------------------------------------------------------
--------------------------------------------------------------------------------------
--------------------------------------------------------------------------------

descriptionIc?neRe: Recherche tablature solo du métèque de "Manolo"

more_horiz
ta version me parrai mieux que ce que j'ai trouvé, merci


Mieux vaut avoir Parkinson qu'Alzeimer, en effet vaut mieux reverser deux goutes de son Ricard qu'oublier de le boire!!!

descriptionIc?neRe: Recherche tablature solo du métèque de "Manolo"

more_horiz
merci a tous... :b:

descriptionIc?neRe: Recherche tablature solo du métèque de "Manolo"

more_horiz
privacy_tip Permission de ce forum:
Vous ne pouvez pas répondre aux sujets dans ce forum