Tutoriel GUITARE FACILE


Tutoriel GUITARE FACILE

Tutoriel GUITARE FACILE
Vous souhaitez réagir à ce message ? Créez un compte en quelques clics ou connectez-vous pour continuer.

Tutoriel GUITARE FACILEConnexion

FLAMENCO-RUMBA.COM

Le deal à ne pas rater :
Promo Nike : -25% pour 2 articles achetés
Voir le deal

Mzlle Kari

+11
fantomusic
sipress
Swoop
thomas41
titcher
diego
dossett
tigrou
fredo
yacinoss
kari
15 participants

descriptionIc?neMzlle Kari

more_horiz
Bonjour à tous, slt
Je suis une toute toute petite rikiki de débutante!!Rolling Eyes

Après m'être cassé le bout des doigts sur une folk qui m'a découragé, j'ai acheté une classique le mois dernier et depuis, je prends un vrai plaisir à apprendre, ça vient doucement,un peu plus de jour en jour, et c'est très encourageant.. Le chemin est encore long.. mais étant une grande rêveuse j'ai trouvé un support remarquable pour m'évader..

Les exercices vidéos de franky sur dailymotion, m'ont donnés de précieuses pistes de travail.. c'est très motivant !!

Bonne continuation à tous !! µ5

descriptionIc?neRe: Mzlle Kari

more_horiz
bienvnido hermana je m'appel yacinoss "yacine" ici tu trouvera ton bonheur parmi les amis guitaristes et je t'invite aussi a visiter ma page web a tres bientot. www.myspace.com/yacinedahmane.

descriptionIc?neRe: Mzlle Kari

more_horiz
bienvenida kari

descriptionIc?neRe: Mzlle Kari

more_horiz
bienvenu a toi kari t'inquiete ici niquel une folle ambiance comme on aimerais avoir dans tout les fofos et ici tout le monde aide tout le monde alors tu peut pas trouver mieux pour progresser £Guitarist £Guitarist


Tout ce qui ne m'est pas transmit est perdu :u: µmusic


mi pueblo por la vida! valdelacasa del tajo

descriptionIc?neRe: Mzlle Kari

more_horiz
olééé bienvenu sur le forum je compatis pour tes ongles c est enervant
mais courrage ca repousse
^^

amuse toi bien et profite du forum

descriptionIc?neRe: Mzlle Kari

more_horiz
bienvenue kari et bon apprentissage sur le forum £Guitarist

descriptionIc?neRe: Mzlle Kari

more_horiz
µ5 farao BIENVENU SUR LE §!§ FORUM FLAMENCO RUMBA !!! §!§ farao OLéééé!!! farao

descriptionIc?neRe: Mzlle Kari

more_horiz
bienvenue a toi parmi nous ...
moi aussi je perds un doigt a chaque cours de Franky ...mais j'aime ca !!!! £Guitarist


viva el guitara et viva el flamenco rumba !!!!!!!!!!

descriptionIc?neRe: Mzlle Kari

more_horiz
Bienvenido Kari!

good tu as bien fait de choisir le nylon c'est plus doux. Very Happy

Bon courage.

descriptionIc?neRe: Mzlle Kari

more_horiz
Merci pour votre accueille !! Very Happy

Les ongles c'est pas un problème, en plus c'est que la main gauche.. Les cordes de la guitare classique ne me font pas mal..

Par contre la difficulté maintenant c'est me muscler les doigts, et acquérir de la dextérité..

Pour les barrés ça me fatigue rapidement les doigts, (aille!! les crampes !!) j'enchaine les notes et les accords au ralenti (avec des gros blancs le temps de positionner mes doigts) et je parle même pas des roulements, ni du tchikiboum héé!!

Il vous a fallut combien de temps pour jouer un peu près correctement ??

descriptionIc?neRe: Mzlle Kari

more_horiz
Hey!! Bienvenue sur le forum, il m'a fallu 5 ans et une prothèse pour bien jouer Very Happy Bahh non, c'est une blague!! Je joue depuis 1 an avec un prof de Classique et Jazz et j'ai découvert ce super site depuis peu. J'avoue franchement que Franky enseigne tellement bien et qu'il prend vraiment bien le temp d'expliquer que ca va tout seul £Guitarist . L'important c'est de pratiquer chaque jour et tu verras ta technique progresser très rapidement!!!
Au boulot!!!
Viva la Musica!!!!!!!!

descriptionIc?neRe: Mzlle Kari

more_horiz
bienvenu kari £Guitarist

descriptionIc?nebienvenu

more_horiz
ces marrant j ai remarqué quil y a plus de com quand ces une nana qui se presente humour
soit la bienvenu sur le forum Very Happy

descriptionIc?neMzlle Kari

more_horiz
bienvenus sur le forum!!!!!!

descriptionIc?neRe: Mzlle Kari

more_horiz
£Guitarist
heureux de te voire parmis nous

descriptionIc?neRe: Mzlle Kari

more_horiz
salut kari

descriptionIc?neRe: Mzlle Kari

more_horiz
bienvenido kari

descriptionIc?neRe: Mzlle Kari

more_horiz
Merci pour ces conseils Swoop...!! Very Happy

Vue que c'est ma page de présentation, je vais en faire mon carnet de bord.. vos conseils seront les bienvenues..

depuis 3 semaines je bosse essentiellement l'ardoise:drink: , la rue ketanou..

1)
------------------------------|--------------------------------------------
------------------------------|---------------------------------------------
------------------------------|---------------------------------------------
-------------6h7p6h7----- |---------6-7-6-7--------------------------
------5--8---------------8--|----5-8-----------7-(7)-(7)---------------
---5-------------------------|-5-------------------------------------------

2)
----------------------------------------------------------------------------
----------------------------------------------------------------------------
----------------------------------------------------------------------------
----------------------------------------------------------------------------
--------5-8p7-5------------------------5----8-7-7-5-5----------------
--7-8--------------8-7-7-----5h7h8------------------------------------

3)
----------------------------------------------------------------------------
----------------------------------------------------------------------------
----------------------------------------------------------------------------
------------6-7s9-9-9--10p9-9-7-7-6-6h7p6---6h7p6-------------
--5h7s8-------------------------------------------8----------8----------
----------------------------------------------------------------------------

c'est 1) +2) +1) +3)

et avec peine, j'essaie d'enchainer : (en barré)..
Dm(Rém) + Am (lam)
E (mi) + Am (lam)
(pour écouter le morceau:


C'est le passage en Am qui me pose pb.. et les barrés me fatigue rapidement les muscles, pour l'intro je suis encore trop lente..

Voila, ça plus les exercices de Francky ça m'occupe bien !!!

bonne continuation à tous !!! µ5

descriptionIc?neRe: Mzlle Kari

more_horiz
Merci pour ces conseils Swoop...!! Very Happy

Vue que c'est ma page de présentation, je vais en faire mon carnet de bord.. vos conseils seront les bienvenues..

depuis 3 semaines je bosse essentiellement l'ardoise:drink: , la rue ketanou..

1)
------------------------------|--------------------------------------------
------------------------------|---------------------------------------------
------------------------------|---------------------------------------------
-------------6h7p6h7----- |---------6-7-6-7--------------------------
------5--8---------------8--|----5-8-----------7-(7)-(7)---------------
---5-------------------------|-5-------------------------------------------

2)
----------------------------------------------------------------------------
----------------------------------------------------------------------------
----------------------------------------------------------------------------
----------------------------------------------------------------------------
--------5-8p-7-5------------------------5----8-7-7-5-5----------------
--7-8--------------8-7-7-----5h7h8-------------------------------------

3)
----------------------------------------------------------------------------
----------------------------------------------------------------------------
----------------------------------------------------------------------------
------------6-7s9-9-9--10p9-9-7-7-6-6h7p6---6h7p6-------------
--5h7s8-------------------------------------------8----------8----------
----------------------------------------------------------------------------

c'est 1) +2) +1) +3)

et avec peine, j'essaie d'enchainer : (en barré)..
Dm(Rém) + Am (lam)
E (mi) + Am (lam)
(pour écouter le morceau: http://www.deezer.com/#music/result/all/l%27ardoise)


C'est le passage en Am qui me pose pb.. et les barrés me fatigue rapidement, pour l'intro je suis encore trop lente..

Voila, ça plus les exercices de Francky ça m'occupe bien !!!

bonne continuation à tous !!! µ5

descriptionIc?neSalutations ........!!

more_horiz
$££$ c'est super des filles jouent de la rumba µ8 lol la fa mi , deviens grande......... lol bienvenue a toi..............!!!!

descriptionIc?neRe: Mzlle Kari

more_horiz
privacy_tip Permission de ce forum:
Vous ne pouvez pas répondre aux sujets dans ce forum