Tutoriel de guitareConnexion

FLAMENCO-RUMBA.COM

BOUTIQUE

Introduction avec arpége...

Partagez

24062009
Introduction avec arpége...




Dernière édition par Franky le Jeu 22 Fév 2018 - 16:07, édité 7 fois

Commentaires

genial merci Francky .
quoi te dire de plus que merciiiiiiiiiiiiiiiiiiiiiiiiiiiiii tu es génial francky
la flor
sunny Merci sunny Franky c'est excercice me plait beaucoup ta guitare aussi good good good :drunken: farao :super:
lolo9308
Very Happy Merci pour cette intro des gipsy trés bien detaillé. good
génial merci
sensei59270
merci franky trop bien!! £Guitarist
Vito_Fibonnaski
Oleee !

Merci francky !
roussel
ola merci francky !!
Je poste pour ceux qui veulent les quelques notes restantes de l'intro :

-----------------------0--------
-------------------0-------------
----------4--------------------
-----5------------------------
-3-----------2-----------------
roussel
Accords qui vont avec l'intro :

0---------------0---------------3--------------2-----------0
1---------------1---------------0--------------0-----------0
0---(x2)-------4--(x2)-------0--(x1)-------0--(x1)---0--(x2)
4----------------2--------------0--------------0-----------4
3----------------0--------------2--------------2-----------2
0------------------------------------------------3



Voila, trés jolie a joué a 2 guitares!!

A commencé a la 2éme suite de notes (je ne c pas kmt l'éxpliké^^)
Anonymous
encore un cours comme franky sait les donner

Merci mr le professeur
phalaenopsis
Un tres grand merci Franky je m'excuse mais je ne suis pas chez moi tres souvent et donc je viend seulement de telecharger les vidéos que je trouve tres tres bien detailler et expliquer
merci et a la procaine j'espere qu'il y en auras encore beaucoups comme ça
BOUILLARD
Bonjour à tous, il y a lontemps que je n'étais pas venu sur le site ( involontairement) et je tombe sur cette vidéos de franky, merci cela tombe très bien pour moi, MERCI FRANKY!!!!
Anonymous
ola franky.
ecore un exercice pour s'améliorer reste à travailler .merci
y que viva la musica,olééé!
serge
simoyagami
merci frnaky top of the top
bot bernard
Merci franky, pas évident le dernier accord faut que j'me fasse ralonger les palmes, hou!!!!!!!
elfuego
merci pour ce petit exo tres sympa, et qui sonne bien!
danny88
tout simplement génial !!!!!!!! merci
Theosinho
Encore merci !
Permission de ce forum:
Vous ne pouvez pas répondre aux sujets dans ce forum