Tutoriel GUITARE FACILE


Tutoriel GUITARE FACILE

Tutoriel GUITARE FACILE
Vous souhaitez réagir à ce message ? Créez un compte en quelques clics ou connectez-vous pour continuer.

Tutoriel GUITARE FACILEConnexion

FLAMENCO-RUMBA.COM

Le deal à ne pas rater :
Cartes Pokémon : où commander le coffret Pokémon Go Collection ...
64.99 €
Voir le deal

Intro "mi cafe"

+10
daniel34
emilio
pykatchoo
kevinitalien
jimjim
titcher
Marie Christine889
VivoBaggio
campulo
roussel
14 participants

descriptionIc?neIntro "mi cafe"

more_horiz
Rappel du premier message :

Je l'avais poster recemment dans une autre rubrique mais je pense que sa place est ici !! ^^
Voila, bonne gratte!

e | ----7-7-7-8------------7-----------7-|
B | --8---------10-10-10--10-8-10----|
G | 9---------------------------------------| x2
D |------------------------------------------|
A |------------------------------------------|
E |------------------------------------------|


e |------7-7-7-8---------------7--------------|
B |---8----------10----10-10--10-8-7-5---|
G |-9-------------------------------------------|
D |----------------------------------------------|
A |----------------------------------------------|
E |----------------------------------------------|

descriptionIc?neRe: Intro "mi cafe"

more_horiz
on peu i faire que du chiquiboum mais a condition de le gerer!!!!!!!!!!!!!

accord MIM ET SI7 POUR LE REFRAIN ET ON INCLU LE LAM POUR LES COUPLETS!!!!!

descriptionIc?neRe: Intro "mi cafe"

more_horiz
kek1 la music en mp3 en bonne kalité pas de youtube merci

descriptionIc?neRe: Intro "mi cafe"

more_horiz
merci a tous le monde


sensei *hi*

descriptionIc?neRe: Intro "mi cafe"

more_horiz
merci ! je la chercher a l oreille Intro "mi cafe" - Page 2 614363

descriptionIc?neRe: Intro "mi cafe"

more_horiz
privacy_tip Permission de ce forum:
Vous ne pouvez pas répondre aux sujets dans ce forum